ENLACES DE SE ALKILA

viernes, 31 de diciembre de 2010

¡¡¡FELIZ AÑO NUEVO 2011!!!



¡¡¡FELIZ AÑO NUEVO 2011!!!
Con mis mejores deseos para este año nuevo año que entra 2011 espero que se hagan realidad todos vuestros sueños y deseos. Con todo mi cariño a Se Alkila.

Y, por supuesto, para todos vosotros amigos que seguís y admiráis a estos chicos ¡¡¡FELIZ AÑO 2011!!!

Aquí os dejo el montaje de vídeo de la canción de Un Día Más de Se Alkila.

Un Día Más

Y aquí os dejo también los acordes sacados por mí de la canción de Resistir de Se Alkila. ¡¡¡Disfrutarlos!!!
Resistir

Capo 2

e|-----------------------------------------------------------------------------------------------------------
B|-------1----0----1-------1----0----1-------------1----0------------------1----0----1-------------------
G|--------------------------------------------2------------------0----------------------------0------------
D|---------------------------------------------------------------------3------------------------------------
A|----------------------------------------------------------------------------------------------------------
E|-----------------------------------------------------------------------------------------------------------
A#m           F#
Viendo las fotos del ayer
F#
Recuerdo cosas que olvidé
F#      G#
Junto a ti

A#m           F#
No quiero y pienso en la verdad
F#
Que tú me quieras no da igual
G#
Y es verdad

A#m
Y vivir, viviré
A#m           F#
Por tu amor lucharé
F#           G#
Por tantos sueños, resistiré

A#m           F#
Perdido en esta soledad
F#
El tiempo pasa sin pasar
F#      G#
Sin estar

A#m           F#
Y aunque yo te quiera olvidar
F#
Todo esto siempre es de verdad
G#
Y es verdad

A#m
Y vivir, viviré
A#m           F#
Por tu amor lucharé
F#           G#
Por tantos sueños, resistiré

e|-----------0-------------------------0--------------------0---------------------0-------------------------
B|---1----------------3--1--3--1---------3--1--0--1---------3--1--0---------------3--1--3--1-----------
G|----------------------------------------------------------------------------0-----------------------------
D|----------------------------------------------------------------------------------------------------------
A|----------------------------------------------------------------------------------------------------------
E|-----------------------------------------------------------------------------------------------------------
A#m
Y vivir, viviré
A#m           F#
Por tu amor lucharé
F#           G#
Por tantos sueños, resistiré

Cm
Y vivir, viviré
Cm           G#
Por tu amor lucharé
G#           A#
Por tantos sueños, resistiré

Cm
Y vivir, viviré
Cm           G#
Por tu amor lucharé
G#           A#
Por tantos sueños, resistiré

Cm
Y vivir, junto a ti
G#           A#
Y sentir, resistir

A#
Resistir

Bueno amigos, disculpar como están las imagenes Gif que han desaparecido del blog, es debido a Photobucket, que temporalmente me las ha desactivado durante unos días. En breves estarán otra vez a la vista de todos.
Un besote enorme y nos vemos al año que viene!! jajaj

4 comentarios:

  1. Feliz año nuevo! Que sigas tan guapa.
    Mil besos,
    Mián Ros

    ResponderEliminar
  2. ¡Hola!
    Gracias por seguirme (:
    Te sigo :)
    Y se alkila es un grupo que me encanta su música :)

    ResponderEliminar
  3. Feliz año nuevo Xarah!!! :):):)
    Estuve en Ávila celebrando la nochevieja en casa de mis abuelos y está claro que son de los que no tienen ningún ordenador, vamos que apenas saben como utilizar el móvil, jejeje.
    Espero que este año vayamos a muchos conciertos de Se Alkila, nada más que sepas por donde van a pasar con la gira lo subes, cruzo dedos, incluidos los de los píes, para que no caiga en diario y con clases, menuda me cayó porque traje 3.
    Que original el video de Un día más, está full!!! Y que pasada de foto del mes de enero, con tanto bellezóooonnnnn no parece tan frío el mes, jejeje:)

    FELIZ AÑO NUEVO SE ALKILA
    os adoroooooooooo!!!!!!!!
    os adoroooooooooo!!!!!!!!
    os adoroooooooooo!!!!!!!!
    os adoroooooooooo!!!!!!!!
    os adoroooooooooo!!!!!!!!
    os adoroooooooooo!!!!!!!!
    os adoroooooooooo!!!!!!!!
    os adoroooooooooo!!!!!!!!
    os adoroooooooooo!!!!!!!!
    os adoroooooooooo!!!!!!!!
    os adoroooooooooo!!!!!!!!

    Chao.

    ResponderEliminar
  4. Feliz año Reflejos!!! :D
    Espero que te lo pasaras genial!! Qué casualidad!! Yo estuve viviendo en Ávila durante un año, no hace mucho :) y es muy bonito :D pero muy frio jeje
    Yo también espero que podamos este año ir a muchos conciertos de Se Alkila!! Ójala les volvamos a ver actuando en un escenario porque son GENIALES!!!! No te preocupes que nada más que sepa algo de la gira lo subo!! Tienes razón, ójala no caiga en diario ni con exámenes porque sino... :(
    Va!! No te preocupes porque te hayan quedado tres, no es como se empieza sino como se acaba :D y seguro que las sacas!!
    Muchas gracias por lo del video!!! La verdad esque me encanta hacerlos!! es muy divertido igual que el hacer los montajes de las fotos como las del calendario jeje. Me hace mucha ilusión que te hayan gustado!! :D Un día se me va a deshacer el blog con tanto bombón jeje
    Mil gracias por tu comentario!!! :D Besitoos!!

    ResponderEliminar

Al dejarme tu comentario es como si se lo estuvieras dejando a Se Alkila porque este blog y todo lo que contiene es para ellos. Gracias por tus palabras. Xarah-Luna